untitled 4

(/) Slide Up  (\) Slide Down  (h) Hammer On  (p) Pull Off  (b) Bend (r) Release (v) Vibrato

intro/verse

E|-------------------|-------------------|
B|-------------------|-------------------|
G|-------------------|-------------------|
D|-------------------|----------------0--|
A|--------0h3p0---0--|--------0h3p0-3----|
E|--0-3-5-------3----|--0-3-5------------|

chorus

E|------------------------------|-----------------------------------|
B|------------------------------|-----------------------------------|
G|------------------------------|-----------------------------------|
D|--0-0-0-0-00-0--0-0-0-0-00----|--0-0-0-0-00-0--0-0-0-0-00---------|
A|--3-3/5-5-55-5--3-3-5-5-55----|--3-3/5-5-55-5--3-3/5-5-55------3--|
E|---------------------------3--|---------------------------0h3h5---|

bridge

E|--------------------------|
B|--------------------------|
G|--------------------------|
D|--------------------------|
A|-----------------0h3p0----|
E|--0h3h5-5-5-5-55-------3--|
http://www.guitartabcreator.com
Guitar Tab Creator is intended to store guitar tab created through the tool. It currently does not support in-line text editing. Any text you place in here will be lost. If you need to comment on your tab, please use the "Tab Notes" section located below.