untitled 3

(/) Slide Up  (\) Slide Down  (h) Hammer On  (p) Pull Off  (b) Bend (r) Release (v) Vibrato

intro/verse

E|--------------------------------------|--------------------|
B|--------------------------------------|--------------------|
G|--5-5bp4p3---3--3-5-3--5bp4p3---3--3--|--5-5bp4p3---3------|
D|-----------5--5---------------5--5----|-----------5---5-4--|
A|--------------------------------------|--------------------|
E|--------------------------------------|--------------------|

prechorus

E|---------------------------------|------------------|
B|---------------------------------|------------------|
G|---------------------------------|------------------|
D|--0h3p0-55555555-0h3h5-----------|--0h3p0-77777777--|
A|--------33333333-------55555555--|--------55555555--|
E|-----------------------33333333--|------------------|
pm------ pm------
chorus

E|-----------------|-----------------|-----------------|
B|-----------------|-----------------|-----------------|
G|-----------------|-----------------|-----------------|
D|-----3-4---------|----3-4---5-555--|----3-4-----3br--|
A|-----------3--4--|----------3-333--|-----------------|
E|--3------6-------|--3-----6--------|--3-----6--------|

solo

E|-------------------------------------------------------------------------------------------------|
B|-------------------------------------------------------------------------------------------------|
G|--12b12-12-12-12-12-12r12-12-12-12-12-12-10----10-----------------------------------10-12-12-12b-|
D|--------------------------------------------12----12-10-12b-12b-12r1212-------10-12--------------|
A|------------------------------------------------------------------------10-12--------------------|
E|-------------------------------------------------------------------------------------------------|



E|---------------------------------------------------------------------------------------------|
B|---------------------------------------------------------------------------------------------|
G|--12r-12-10-------------------------------0h3p0-5b-5b-5b-5b-5b-5r-5r-5r-0-3-5-3-5br-3---3-0--|
D|----------------------8-10-10bp9p8----------------------------------------------------5------|
A|-----------------8-10--------------10-8------------------------------------------------------|
E|------------7/10------------------------8----------------------------------------------------|



E|--------------------------------------------15b--|
B|-----------------------------------------13------|
G|--8b/10br-10/12b-12b-15-15b-15r-15\13-15---------|
D|-------------------------------------------------|
A|-------------------------------------------------|
E|-------------------------------------------------|
http://www.guitartabcreator.com
Guitar Tab Creator is intended to store guitar tab created through the tool. It currently does not support in-line text editing. Any text you place in here will be lost. If you need to comment on your tab, please use the "Tab Notes" section located below.