Untitled 2

(/) Slide Up  (\) Slide Down  (h) Hammer On  (p) Pull Off  (b) Bend (r) Release (v) Vibrato

intro/verse

E|----------------------------------------------|
B|----6----6------------------------------------|
G|----5----5-----2----2-----5/7---7-----2---2---|
D|--3--3-3--0----2----2-----5/7---7-----2---2-0-|
A|-------------0----0---0-3-----5---0-0---0-----|
E|----------------------------------------------|

chorus

E|------------------------------------------------------|
B|------------------------------------------------------|
G|--3--3-3-3-3-3-3--------------------------------------|
D|--3--3-3-3-3-3-3-0-5--5-5-5-5-5-5---x4---3-3333333333-|
A|--1--1-1-1-1-1-1-0-5--5-5-5-5-5-5--------3-3333333333-|
E|-----------------0-3--3-3-3-3-3-3--------1-1111111111-|
pm---------|
solo

E|--------------------------------------------------------------------------------------------|
B|--------------------------------------------------------------------------------------------|
G|---------------------------------------------------------------------------------------10-10|
D|-----14------------------------------------------------------------9/10-10-12b-12b-14b------|
A|--------15-12b-14b-14r-14-14p12-12\10-10-10-10-10h12-12-12b-12r-12p10--------------------------|
E|--12----------------------------------------------------------------------------------------|



E|--------------------------------------------------------------------------------------|
B|------------15-13---------------------------------------------------------------------|
G|--10-12b-12-------14b-14r-12b-14p12-12-12--12-12-12\10--10-10\7--7-7-7-7\5--5-5-5-0---|
D|------------------------------------------------------------------------------------3-|
A|--------------------------------------------------------------------------------------|
E|--------------------------------------------------------------------------------------|
http://www.guitartabcreator.com
Guitar Tab Creator is intended to store guitar tab created through the tool. It currently does not support in-line text editing. Any text you place in here will be lost. If you need to comment on your tab, please use the "Tab Notes" section located below.