untitled 1

(/) Slide Up  (\) Slide Down  (h) Hammer On  (p) Pull Off  (b) Bend (r) Release (v) Vibrato


Intro/verse

E|----------------------------------------|
B|----------------------------------------|
G|----------------------------------------|
D|------------9----7br-4----7br-4---7br-4-|
A|-------9-10-----------------------------|
D|--12b----------0--------0-------0-------|

chorus

E|------------------------------------|
B|------------------------------------|
G|------------------------------------|
D|----------------4/5-5---4/5-5---7/4-| x2
A|--0--777-4-4--0-2/3-3-0-2/3-3-0-5/2-|
E|--0--777-4-4--0-------0-------0-----|

solo

E|-------------------------------------------------------------------------------------------------|
B|----15b-------------------------------------------------14/15------------------------------------|
G|----14b--------12---12br-10---9h10h12-9-10---10/12/14---------16-14b---9h10h12-9-10--------------|
D|----------14br-----------------------------------------------------------------------------12----|
A|--------------------------------------------------------------------------------------9h10----9-7|
D|-0------0---------0---------0--------------0----------0--------------0--------------0------------|
pm pm pm pm pm pm pm pm

Bass(steady through whole song)

G|------------|
D|------------|
A|------------|
D|--0-5h6p5-2-|

Guitar Tab Creator is intended to store guitar tab created through the tool. It currently does not support in-line text editing. Any text you place in here will be lost. If you need to comment on your tab, please use the "Tab Notes" section located below.