A MINOR PENTATONIC SCALE

(/) Slide Up  (\) Slide Down  (h) Hammer On  (p) Pull Off  (b) Bend (r) Release (v) Vibrato
E|--------------------------------5--8--
B|--------------------------5--8--------
G|--------------------5--7--------------
D|--------------5--7--------------------
A|--------5--7--------------------------
E|--5--8--------------------------------

i l i r i r i r i l i l

E|--8--5--------------------------------
B|--------8--5--------------------------
G|--------------7--5--------------------
D|--------------------7--5--------------
A|--------------------------7--5--------
E|--------------------------------8--5--
l i l i etc...


E|--
B|--
G|--
D|--
A|--
E|--



E|--------------------------------------------------------------------5--8--
B|--------------------------------------------------5--8--------5--8--------
G|--------------------------------5--7--------5--7--------5--7--------------
D|--------------5--7--------5--7--------5--7--------------------------------
A|--------5--7--------5--7--------------------------------------------------
E|--5--8--------------------------------------------------------------------



E|--8--5--------------------------------------------------------------------
B|--------8--5--------8--5--------------------------------------------------
G|--------------7--5--------7--5--------7--5--------------------------------
D|--------------------------------7--5--------7--5--------7--5--------------
A|--------------------------------------------------7--5--------7--5--------
E|--------------------------------------------------------------------8--5--
http://www.guitartabcreator.com
Guitar Tab Creator is intended to store guitar tab created through the tool. It currently does not support in-line text editing. Any text you place in here will be lost. If you need to comment on your tab, please use the "Tab Notes" section located below.