A MINOR PENTATONIC LICKS

(/) Slide Up  (\) Slide Down  (h) Hammer On  (p) Pull Off  (b) Bend (r) Release (v) Vibrato


E|-----------------------------------------
B|--- ---5--8-------5--8-------5--8--------
G|--7b9--------7b9--------7b9--------7b9v--
D|-----------------------------------------
A|-----------------------------------------
E|-----------------------------------------
r i l r i l r i l r


E|----------5----------5----------5---------
B|-------5----------5----------5-----8b10v--
G|--7b9--------7b9--------7b9---------------
D|------------------------------------------
A|------------------------------------------
E|------------------------------------------
r i i r i i r i i r

Guitar Tab Creator is intended to store guitar tab created through the tool. It currently does not support in-line text editing. Any text you place in here will be lost. If you need to comment on your tab, please use the "Tab Notes" section located below.