Titanium

(/) Slide Up  (\) Slide Down  (h) Hammer On  (p) Pull Off  (b) Bend (r) Release (v) Vibrato

E|--------------------------|--------------------------|--------------------------|--
B|--------------8-----------|--------------6-----------|--------------8-----------|--
G|--------8-----------8-----|--------8-----------8-----|--------8-----------8-----|--
D|-----8-----8-----8-----8--|-----8-----8-----8-----8--|-----8-----8-----8-----8--|--
A|--6-----------------------|--5-----------------------|--------------------------|--
E|--------------------------|--------------------------|--8-----------------------|--



E|--------------------------|--------------------------|--------------
B|--------------8-----------|--------------8-----------|--------------
G|--------8-----------8-----|--------8-----------8-----|--------------
D|--5--8-----8-----8-----8--|-----8-----8-----8-----8--|--------8--8--
A|--------------------------|--6-----------------------|--5--8--------
E|--------------------------|--------------------------|--------------
http://www.guitartabcreator.com
Guitar Tab Creator is intended to store guitar tab created through the tool. It currently does not support in-line text editing. Any text you place in here will be lost. If you need to comment on your tab, please use the "Tab Notes" section located below.