BOHEMIAN RHAPSODY

(/) Slide Up  (\) Slide Down  (h) Hammer On  (p) Pull Off  (b) Bend (r) Release (v) Vibrato
E|--5--5--5--5--5--5----|--5--5--5--5--5--2----|--4--4--4--5--4----------5--5--5--5--2--0----|--
B|--7--7--7--7--7--7----|--7--7--7--7--7--4----|--5--5--5--7--5----------5--5--7--5--3--2----|--
G|--9--9--9--9--9--9----|--8--8--9--8--6--4----|--6--6--6--7--6----------6--6--7--6--4--2----|--
D|----------------------|----------------------|---------------------------------------------|--
A|----------------------|----------------------|-------------------7--7----------------------|--
E|----------------------|----------------------|---------------------------------------------|--



E|--------------2----------|--------------0--------------5----|------10------10--
B|--2--2--2--2-----2-------|-----2--2--3--2--2--7-----7-------|--12------10------
G|--2-----------------2----|-----0-----4--2--2--7--7----------|--12------11------
D|--4----------------------|--4--------5--------0-------------|------------------
A|-------------------------|-----0----------------------------|------------------
E|--2----------------------|----------------------------------|------------------



E|-----------------9--0--0--2--0-------0--2--4----|--6--6--5--4--4--5--6--6--5--4--4--5--
B|--7--7--7--7--7-----0-----------3p0-------------|--6--6--5--4--4--5--6--6--5--4--4--5--
G|--7--------------7--1---------------------------|--7--7--6--5--5--6--7--7--6--5--5--6--
D|--7---------------------------------------------|--------------------------------------
A|------------------------------------------------|--------------------------------------
E|--7-----------------0---------------------------|--------------------------------------



E|--2--2--2--2--0h2--5--5--5--5--5--4--------0--------4----10--
B|--3----------------2--4--4--4--4--5--------0-----5-------12--
G|--2----------------2--------------4--4-----1--4----------13--
D|--0----------------2--4--4--4--4--------6--------------------
A|--------------4-------3--3--3--3-----------------------------
E|----------------------------------0--------0-----------------



E|-------------------2--0-----------2--0--------------2--0-------------------4--2--
B|----------------2--------------2--------2--2-----2-------------2--2-----2--------
G|--1/2--2-----2--------------2-----------------2-----------2/4--------4-----------
D|----------2--------------2-------------------------------------------------------
A|-------0--------------------------------0----------------------------------------
E|------------------------------------------------------------2--------------------



E|----------------------------------------------------------|--
B|--2--2--------------------------------------0--------0----|--
G|--------7--9--7----------------7--9--7------------1-------|--
D|-----------------11--9--9--11-----------11-----2----------|--
A|----------------------------------------------------------|--
E|--------7------------7---------7------------0-------------|--
http://www.guitartabcreator.com
Guitar Tab Creator is intended to store guitar tab created through the tool. It currently does not support in-line text editing. Any text you place in here will be lost. If you need to comment on your tab, please use the "Tab Notes" section located below.