Flicker

(/) Slide Up  (\) Slide Down  (h) Hammer On  (p) Pull Off  (b) Bend (r) Release (v) Vibrato


E|-------------5-------------
B|--6-------6-------6-----6--
G|-------7-----7-------7-----
D|--8------------------------
A|---------------------------
E|---------------------------



E|-------------3-------------
B|--4-------4-------4-----4--
G|-------3-----3-------3-----
D|--5------------------------
A|---------------------------
E|---------------------------



E|-------------5-------------
B|--6-------6-------6-----6--
G|-------7-----7-------7-----
D|--0------------------------
A|---------------------------
E|---------------------------



E|-------------4p3-----
B|--4-------4-------4--
G|-------5----------5--
D|--6------------------
A|---------------------
E|---------------------
http://www.guitartabcreator.com
Guitar Tab Creator is intended to store guitar tab created through the tool. It currently does not support in-line text editing. Any text you place in here will be lost. If you need to comment on your tab, please use the "Tab Notes" section located below.