the easiest tab of all time

(/) Slide Up  (\) Slide Down  (h) Hammer On  (p) Pull Off  (b) Bend (r) Release (v) Vibrato


E|-----------------------------------------------------------------------------
B|-----------------------------------------------------------------------------
G|--------0-----------0-----------0-----------0-----------0-----------0--------
D|-----0-----0-----0-----0-----0-----0-----0-----0-----0-----0-----0-----0-----
A|--7-----------7-----------7-----------7-----------9-----------9--------------
E|-----------------------------------------------------------------------------



E|--------------------------------------------------------------------------
B|--------------------------------------------------------------------------
G|--------0-----------0-----------0-----------0-----------0-----------0-----
D|-----0-----0-----0-----0-----0-----0-----0-----0-----0-----0-----0-----0--
A|--------------------------------------------------------------------------
E|--8-----------7-----------5-----------5-----------5-----------5-----------



E|--------------------------------------------------------------
B|--------------------------------------------------------------
G|--------------------0-----------0-----------0-----------0-----
D|-----0-----0-----0-----0-----0-----0-----0-----0-----0-----0--
A|--------------------------------------------------------------
E|--3-----2-----0-----------0-----------0-----------0-----------
http://www.guitartabcreator.com
Guitar Tab Creator is intended to store guitar tab created through the tool. It currently does not support in-line text editing. Any text you place in here will be lost. If you need to comment on your tab, please use the "Tab Notes" section located below.