Dulcet Dos

[code]
(/) Slide Up (\) Slide Down (h) Hammer On (p) Pull Off (b) Bend (r) Release (v) Vibrato


E|-----------3p0-----------|--
B|--------3----------3-----|--
G|-----0----------0-----0--|--
D|-------------------------|--
A|--2----------------------|--
E|-------------------------|--



E|-------------------------|-------------------------|--
B|-----------5p0--------0--|-----------5p0-----------|--
G|--------5----------5-----|--------5----------5-----|--
D|-----5----------5--------|-----5----------5-----5--|--
A|--0----------------------|--0----------------------|--
E|-------------------------|-------------------------|--



E|-----------7-----7p0-----|-----
B|--------8-----7----------|-----
G|-----0----------------0--|-----
D|-------------------------|-----
A|--7----------------------|-----
E|-------------------------|-----



E|-------------------------|-------------------------|--
B|-----------3p0-----------|-----------3p0--------0--|--
G|--------5----------5-----|--------5----------5-----|--
D|-----5----------5-----5--|-----5----------5--------|--
A|--5----------------------|--5----------------------|--
E|-------------------------|-------------------------|--
[/code]
[url]http://www.guitartabcreator.com[/url]
Guitar Tab Creator is intended to store guitar tab created through the tool. It currently does not support in-line text editing. Any text you place in here will be lost. If you need to comment on your tab, please use the "Tab Notes" section located below.