Dulcet demo 1

(/) Slide Up  (\) Slide Down  (h) Hammer On  (p) Pull Off  (b) Bend (r) Release (v) Vibrato
E|-----------3--0-------|-----------3--0-------|--
B|--------3----------3--|--------3----------3--|--
G|-----0----------------|-----0----------------|--
D|----------------------|----------------------|--
A|--2-------------------|--2-------------------|--
E|----------------------|----------------------|--



E|----------------------|----------------------
B|-----------5--0-------|-----------5--0-------
G|--------5----------5--|--------5----------5--
D|-----5----------------|-----5----------------
A|--0-------------------|--0-------------------
E|----------------------|----------------------



E|-----------7-----7--0--|-----------7-----7--0--
B|--------8-----7--------|--------8-----7--------
G|-----0-----------------|-----0-----------------
D|-----------------------|-----------------------
A|--7--------------------|--7--------------------
E|-----------------------|-----------------------



E|-----------3-----------|-----------3-----------|--
B|--------3-----------3--|--------3-----------3--|--
G|-----0-----------0-----|-----0-----------0-----|--
D|-----------------------|-----------------------|--
A|--0-----------2--------|--0-----------2--------|--
E|-----------------------|-----------------------|--



E|-----------7--------7--|-----------7--------7--|--
B|--------8--------7-----|--------8--------7-----|--
G|-----0--------8--------|-----0--------8--------|--
D|-----------------------|-----------------------|--
A|--7--------------------|--7--------------------|--
E|-----------------------|-----------------------|--
http://www.guitartabcreator.com
Guitar Tab Creator is intended to store guitar tab created through the tool. It currently does not support in-line text editing. Any text you place in here will be lost. If you need to comment on your tab, please use the "Tab Notes" section located below.