Diddleedee

(/) Slide Up  (\) Slide Down  (h) Hammer On  (p) Pull Off  (b) Bend (r) Release (v) Vibrato
E|---------------|---------------|---------------|----------------|-
B|-------5-------|-------5-------|-------5-------|-------5--------|-
G|-----0---------|-----0---------|-----0---------|-----0------0---|-
D|---4--------4--|---4--------4--|---4--------4--|---4----------4-|-
A|-5-------------|-5-------------|-5-------------|-5--------------|-
E|----------0----|----------0----|----------0----|----------0-----|-



E|----------------|----------------|----------3--0--|----------3-0-0-|-
B|-------0--------|-------0--------|-------0--------|-------0--------|-
G|-----0------0---|-----0------0---|-----0----------|-----0----------|-
D|---4----------4-|---4----------4-|---4------------|---4------------|-
A|-5--------5-----|-5--------5-----|----------------|----------------|-
E|----------------|----------------|-0--------0--0--|-0--------0-0-0-|-



E|--0--0------0----0----|--2--2------5----3----|--0--0------0----0----|--2--2------5----3----|--
B|----------------------|----------------------|----------------------|----------------------|--
G|--0--0------0----0----|--2--2------5----4----|--0--0------0----0----|--2--2------5----4----|--
D|----------------------|----------------------|----------------------|----------------------|--
A|----------------------|----------------------|----------------------|----------------------|--
E|----------------------|----------------------|----------------------|----------------------|--



E|-5-5---3--3--|-2--------|-5-5---3--3--|-2-
B|-------------|----------|-------------|-3-
G|-5-5---4--4--|-2--------|-5-5---4--4--|-2-
D|-------------|----------|-------------|-0-
A|-------------|----------|-------------|-0-
E|-------------|----------|-------------|-2-
http://www.guitartabcreator.com
Guitar Tab Creator is intended to store guitar tab created through the tool. It currently does not support in-line text editing. Any text you place in here will be lost. If you need to comment on your tab, please use the "Tab Notes" section located below.