I Will (Intro and Verse)

(/) Slide Up  (\) Slide Down  (h) Hammer On  (p) Pull Off  (b) Bend (r) Release (v) Vibrato


E|-----------5-----2--3-----------3-----------3-----------5-----2--3-----------3-----
B|--------3-----------3--------3-----------3-----------3-----------3--------3--------
G|-----2--------------------0-----------0-----------2--------------------0-----------
D|--0--------------------------------------------0-----------------------------------
A|--------------2--------3-----------0-----------------------2--------3-----------0--
E|-----------------------------------------------------------------------------------



E|-------5-2-----0---3-----------5-2-----5---5-10-7-3-0---5-2---------5-10-7---3-0-------
B|---3---------3-----------2-3---------3------------------------3--------------------2-3-
G|-2----------------------------------------------0--------------------------------------
D|-----0-----------------------0-------------0-------------------------------------------
A|-----------2-----------0-----------2-----0------------0-----------2--------------0-----
E|-----------------0---0--------------------------------------2---2----------0-----------
http://www.guitartabcreator.com
Guitar Tab Creator is intended to store guitar tab created through the tool. It currently does not support in-line text editing. Any text you place in here will be lost. If you need to comment on your tab, please use the "Tab Notes" section located below.