Everlasting God Lead

(/) Slide Up  (\) Slide Down  (h) Hammer On  (p) Pull Off  (b) Bend (r) Release (v) Vibrato


E|----------------------------|--------------------|-------------------------|-------------|--
B|-------------5--5-----------|--------------------|-------------------------|-------------|--
G|----------6--------4--6--7--|----7--6--4---------|----7--6--4-----4--6--7--|----7--6--4--|--
D|----------------------------|-----------------7--|-------------7-----------|-------------|--
A|----------------------------|--------------------|-------------------------|-------------|--
E|----------------------------|--------------------|-------------------------|-------------|--



E|-----|--------------------------|---------------------------|------7------------------|--
B|--7--|--7-----7-----7--5-----7--|-----9-----10-------10-----|--10-------9-------9-----|--
G|-----|-----7-----7--------6-----|--7-----9--------9------9--|----------------9-----9--|--
D|-----|--------------------------|---------------------------|-------------------------|--
A|-----|--------------------------|---------------------------|-------------------------|--
E|-----|--------------------------|---------------------------|-------------------------|--



E|-------------------------|---------------------------|--------------------7-------|--
B|--9--10----7-------7-----|--7--5-----7-----9-----10--|--10-----10-----10-------9--|--
G|----------------7-----7--|--------6-----7-----9------|------9------9--------------|--
D|-------------------------|---------------------------|----------------------------|--
A|-------------------------|---------------------------|----------------------------|--
E|-------------------------|---------------------------|----------------------------|--



E|-----------------------|--
B|--9-----9-----9----11--|--
G|-----9-----9-----------|--
D|-----------------------|--
A|-----------------------|--
E|-----------------------|--
http://www.guitartabcreator.com
Guitar Tab Creator is intended to store guitar tab created through the tool. It currently does not support in-line text editing. Any text you place in here will be lost. If you need to comment on your tab, please use the "Tab Notes" section located below.