Consuming Fire Lead

(/) Slide Up  (\) Slide Down  (h) Hammer On  (p) Pull Off  (b) Bend (r) Release (v) Vibrato

E|-----|----------------------|----------------------|------------------|-----------10--|--15--
B|-----|--8-------8--10-------|--10--12------12--13--|--8----7----------|--5------------|------
G|--7--|-------7-----------7--|----------------------|----------7----7--|---------------|------
D|-----|----------------------|----------------------|------------------|---------------|------
A|-----|----------------------|----------------------|------------------|---------------|------
E|-----|----------------------|----------------------|------------------|---------------|------



E|-----|---------------------|--15--
B|-----|--5--------------15--|------
G|--7--|---------------------|------
D|-----|---------------------|------
A|-----|---------------------|------
E|-----|---------------------|------



E|-----|--3------3--2--|------------------|--3----------2--3--2--|--5----5--5--5--5-----|--
B|--3--|---------------|----3----------3--|----------------------|-------------------3--|--
G|-----|---------------|------------------|----------------------|----------------------|--
D|-----|---------------|------------------|----------------------|----------------------|--
A|-----|---------------|------------------|----------------------|----------------------|--
E|-----|---------------|------------------|----------------------|----------------------|--



E|--3-----3-----3-----3-----|--2-----2-----2-----2-----|--2h3-----3-----3-----3-----|-----
B|-----3-----3-----3-----3--|-----3-----3-----3-----3--|-------3-----3-----3-----3--|-----
G|--------------------------|--------------------------|----------------------------|-----
D|--------------------------|--------------------------|----------------------------|-----
A|--------------------------|--------------------------|----------------------------|-----
E|--------------------------|--------------------------|----------------------------|-----



E|--6/8-----8-----7-----10-----|--3-----3-----3-----3-----|--2-----2-----2-----2-----|-----
B|-------8-----8-----8------8--|-----3-----3-----3-----3--|-----3-----3-----3-----3--|-----
G|-----------------------------|--------------------------|--------------------------|-----
D|-----------------------------|--------------------------|--------------------------|-----
A|-----------------------------|--------------------------|--------------------------|-----
E|-----------------------------|--------------------------|--------------------------|-----



E|--2h3-----3-----3-----3-----|--5-----5-----5------------|--3--
B|-------3-----3-----3-----3--|-----3-----3-----3------3--|-----
G|----------------------------|---------------------------|-----
D|----------------------------|---------------------------|-----
A|----------------------------|---------------------------|-----
E|----------------------------|---------------------------|-----



E|-----------------|----------------|--
B|-----------------|----------------|--
G|--7h9------------|--7h9--9--9--9--|--
D|-----------------|----------------|--
A|-----------------|----------------|--
E|-----------------|----------------|--
http://www.guitartabcreator.com
Guitar Tab Creator is intended to store guitar tab created through the tool. It currently does not support in-line text editing. Any text you place in here will be lost. If you need to comment on your tab, please use the "Tab Notes" section located below.