1000 Reason Lead

(/) Slide Up  (\) Slide Down  (h) Hammer On  (p) Pull Off  (b) Bend (r) Release (v) Vibrato


E|-----------------------|---------------------|--------------------|-----
B|-------3----3----3--3--|--3----3-------------|--------------------|-----
G|--2----2----2h4--4--4--|--4----2------2------|--2------2----------|-----
D|--2h4------------------|--------------4------|--2h4h2--0--2p0-----|-----
A|-----------------------|---------------------|-----------------2--|-----
E|-----------------------|---------------------|--------------------|-----



E|----------------------|------------------------|--
B|----------------------|------------------------|--
G|------------2---------|--------2----2--2-------|--
D|--0----2---------4----|--0--2-------------2----|--
A|----------------------|------------------------|--
E|----------------------|------------------------|--



E|-------------------|------------------|-------------------|---------------------|--
B|-----------8-------|-------10---------|------------8------|--8----5------3h5h3--|--
G|-------------------|------------------|-------------------|---------------------|--
D|------4/9-------9--|--/11------11/12--|------------9------|-------5------4------|--
A|-------------------|------------------|-------------------|---------------------|--
E|-------------------|------------------|-------------------|---------------------|--
http://www.guitartabcreator.com
Guitar Tab Creator is intended to store guitar tab created through the tool. It currently does not support in-line text editing. Any text you place in here will be lost. If you need to comment on your tab, please use the "Tab Notes" section located below.