First solo

(/) Slide Up  (\) Slide Down  (h) Hammer On  (p) Pull Off  (b) Bend (r) Release (v) Vibrato


E|-------------------------------------------------------------------------------------------
B|-------------------------------------------------------------------------------------------
G|----------------------------------12-------------------------------------------12----------
D|-------------------------------14----14-------------------------------------14----14-------
A|----------12----------------14----------14-------------12----------------14----------14----
E|-12-13-15----15-13-10-12-15----------------15-12-13-15----15-13-10-12-15----------------15-



E|-------------------------------------------------------------------------------------------------
B|-------------------------------------------------------------------------------------------------
G|-------------------------------------------------------------------------------------------------
D|----14-12-14----14-12-14----14-12-14----14-12-14----12----12----12----12----12----12----12----12-
A|-12----------12----------12----------12----------15----14----15----14----15----14----15----14----
E|-------------------------------------------------------------------------------------------------



E|-------------------------------------------------------------------------------------------------
B|-------------------------------------------------------------------------------------------------
G|-------------------------------------------------------------------------------------------------
D|-------------------------------------------------------------------------------------------------
A|----15-14-15----15-14-15----15-14-15----15-14-15----14-12-14----14-12-14----14-12-14----14-12-14-
E|-12----------12----------12----------12----------10----------10----------10----------10----------
http://www.guitartabcreator.com
Guitar Tab Creator is intended to store guitar tab created through the tool. It currently does not support in-line text editing. Any text you place in here will be lost. If you need to comment on your tab, please use the "Tab Notes" section located below.