Heartless-Fake Problems

(/) Slide Up  (\) Slide Down  (h) Hammer On  (p) Pull Off  (b) Bend (r) Release (v) Vibrato

Stave 1:

E|--16--14--12------------------------------------------|--
B|--------------14--12----------------------------------|--
G|----------------------13--11------------------13------|--
D|------------------------------14----------14------14--|--
A|----------------------------------14--16--------------|--
E|------------------------------------------------------|--

Stave 2:

E|-----------------------------------|-----------------------------------------------------------|--
B|-----------------------------------|--17--14---------------------------------------------------|--
G|-----------------------16--16--13--|----------16--13--13h11--13h11--13h11--13h11----------13v--|--
D|---------14--14h16h14--------------|----------------------------------------------14--14-------|--
A|--14h16----------------------------|-----------------------------------------------------------|--
E|-----------------------------------|-----------------------------------------------------------|--

Stave 3:

E|--------------|------------------------------------------------------------------|--------------------------
B|--------------|------------------------------------------------------------------|--------------------------
G|--13--11------|--13--13--16--13----------16--------------16--------------16------|--------------------------
D|----------14--|------------------16--16------16--14--14------14--16--16------16--|--------------------------
A|--------------|------------------------------------------------------------------|--------------------------
E|--------------|------------------------------------------------------------------|--------------------------

Stave 4:

E|------------------------------------------------------------------|--------------------------|--
B|------------------------------------------------------------------|----------17--17--17--17--|--
G|--13--13--16--16----------16--16----------16--------------16------|--13--16------------------|--
D|------------------16--16----------14--14------14--16--16------16--|--------------------------|--
A|------------------------------------------------------------------|--------------------------|--
E|------------------------------------------------------------------|--------------------------|--

Stave 5:

E|--------------------------|--------------------------------------------------------------|--
B|----------17--17--17--17--|----------17--16--14----------20--20--20--20--20--20--20--17--|--
G|--13--16------------------|--13--16--------------13--16----------------------------------|--
D|--------------------------|--------------------------------------------------------------|--
A|--------------------------|--------------------------------------------------------------|--
E|--------------------------|--------------------------------------------------------------|--

Stave 6:

E|--------------|--------------|-----------------------------------------------|----------------------|--
B|--17--17--17--|--17--17--17--|--20--17--15-----------------------------------|----------------------|--
G|--------------|--------------|--------------16--16h14--16h14--16h14----------|----------------------|--
D|--------------|--------------|---------------------------------------17--14--|--14----------14--14--|--
A|--------------|--------------|-----------------------------------------------|------14--16----------|--
E|--------------|--------------|-----------------------------------------------|----------------------|--

Stave 7:

E|--------------------------------|------------------------------------------------------------|--
B|--------------------------------|------------------------------------------------------------|--
G|--------------------------------|------------------------------------------------------------|--
D|---------16--14---------16--14--|------------------------------------------------------------|--
A|--14h16----------14h16----------|------------------------------------------------------------|--
E|--------------------------------|--7h9--12--12--7h9--12--12--7h9--12--12h14h12--12--7h9--12--|--

Stave 8:

E|-------------------------------------------------------|---------------|--
B|-------------------------------------------------------|---------------|--
G|--13h11--13h11--13h11----------13h11--------------13v--|--13--11-------|--
D|-----------------------14--14---------14--14--14-------|----------14v--|--
A|-------------------------------------------------------|---------------|--
E|-------------------------------------------------------|---------------|--

Stave 9:

E|------------------------------------------------------------------|--
B|------------------------------------------------------------------|--
G|--13--13--16--16----------13--16--------------14----------13--16--|--
D|------------------16--16----------14--14--16------16--16----------|--
A|------------------------------------------------------------------|--
E|------------------------------------------------------------------|--

Stave 10:

E|----------------------------------------------------------------------|-----------------------------------
B|----------17--17--17--17----------17--17--17--17----------17--16--14--|-----------------------------------
G|--14--16------------------14--16------------------14--16--------------|-----------------------------------
D|----------------------------------------------------------------------|-----------------------------------
A|----------------------------------------------------------------------|-----------------------------------
E|----------------------------------------------------------------------|-----------------------------------

Stave 11:

E|----------------------------------|--
B|----------17----------17--16--14--|--
G|--14--16------14--16--------------|--
D|----------------------------------|--
A|----------------------------------|--
E|----------------------------------|--

http://www.guitartabcreator.com
Guitar Tab Creator is intended to store guitar tab created through the tool. It currently does not support in-line text editing. Any text you place in here will be lost. If you need to comment on your tab, please use the "Tab Notes" section located below.