my girl ps3

(/) Slide Up  (\) Slide Down  (h) Hammer On  (p) Pull Off  (b) Bend (r) Release (v) Vibrato


E|------------------------------------------------------------------------------------------------
B|------------------------------------------------------------------------------------------------
G|------------------------------------------------------------------------------------------------
D|-----------5--7-------------5--7-------------5--7------------------------------5--7-------------
A|--3--5--7----------3--5--7----------3--5--7-------------------3--5----3--5--7-------------------
E|-----------------------------------------------------1--3--5---------------------------1--3-----



E|--------------8--10----------8--10---------------------------------------------------------------
B|---------------------10--12---------10--12--12--12--12--12--13--13-------------------------------
G|---------------------10--12---------10--12--12--12--12--12---------------------------------------
D|-----3--5----------------------------------------------------------------------5--7--------------
A|--5-------------------------------------------------------------------3--5--7-----------------3--
E|-----------1-------------------------------------------------------------------------1--3--5-----



E|-----------------------
B|-----------------------
G|-----------------------
D|-----------------5--7--
A|--3--5--3--5--7--------
E|-----------------------
http://www.guitartabcreator.com
Guitar Tab Creator is intended to store guitar tab created through the tool. It currently does not support in-line text editing. Any text you place in here will be lost. If you need to comment on your tab, please use the "Tab Notes" section located below.