my girl 2nd try

(/) Slide Up  (\) Slide Down  (h) Hammer On  (p) Pull Off  (b) Bend (r) Release (v) Vibrato


E|-----------------------------------------------------------------------------------------------
B|-----------------------------------------------------------------------------------------------
G|-----------------5-----------------5-----------------------------------------------------------
D|-----------5--7--------------5--7--------------5--7-----------------3-----------5--7-----------
A|--3--5--7-----------3--5--7-----------3--5--7-----------------3--5-----3--5--7-----------------
E|-----------------------------------------------------1--3--5--------------------------1--3--5--



E|--------------------------------------------------------------------8--10----------8----------
B|-----------------------------------------------------------------------10--10--12-----10--12--
G|-----------------------------------------------------------------------10--10--12-----10--12--
D|--------3-----------5--7-----------------3-----------5--7-------------------------------------
A|--3--5-----3--5--7-----------------3--5-----3--5--7-------------------------------------------
E|--------------------------1--3--5--------------------------1--3--5----------------------------



E|-----------------------------------------------------------------------------------------------
B|--12--12--12--12--13--13-----------------------------------------------------------------------
G|--12--12--12--12-------------------------------------------------------------------------------
D|-----------------------------------------5--7-----------------3-----------5--7-----------------
A|--------------------------------3--5--7-----------------3--5-----3--5--7-----------------3-----
E|-----------------------------------------------1--3--5--------------------------1--3--5--------



E|-----------------------------------------------------------8--10----------8--10--------------
B|--------------------------------------------------------------10--10--12-----10--10--12--12--
G|--------------------------------------------------------------10--10--12-----10--10--12--12--
D|-----3-----------5--7-----------------3-----------5--7---------------------------------------
A|--5-----3--5--7-----------------3--5-----3--5--7---------------------------------------------
E|-----------------------1--3--5--------------------------1------------------------------------



E|-------------------------------------------------------------------------------------------
B|--12--12--12--13--13-----------------------------------------------------------------------
G|--12--12--12------14-----------------------------------------------------------------------
D|-------------------------------------5--7-----------5--7-----------5--7--------------------
A|----------------------------3--5--7--------3--5--7--------3--5--7-----------------3--5-----
E|-------------------------------------------------------------------------1--3--5-----------



E|----------------------------7--7--7--7------------------------------------------------------
B|--------------------10--10--------8--8------------------------------------------------------
G|--------------------10--10--------9--9------------------------------------------------------
D|-----------5--7--------------------------------------7--9-----------------5-----------7--9--
A|--3--5--7-----------------------------------5--7--9-----------------5--7-----5--7--9--------
E|-----------------1-----------------------------------------3--5--7--------------------------



E|--------------------------------------------------------------------10--12--9--10--12--9---
B|--------------------------------------------------------------------10--12-----10--12--10--
G|---------------------------------------------------------------------------------------9---
D|-----------------5-----------7--9-----------------5-----------7--9-------------------------
A|-----------5--7-----5--7--9-----------------5--7-----5--7--9-------------------------------
E|--3--5--7--------------------------3--5--7-------------------------------------------------



E|--10--9---9---9---10--------
B|--10--10--10--10--12--------
G|----------------------------
D|----------------------------
A|----------------------------
E|----------------------------
http://www.guitartabcreator.com
Guitar Tab Creator is intended to store guitar tab created through the tool. It currently does not support in-line text editing. Any text you place in here will be lost. If you need to comment on your tab, please use the "Tab Notes" section located below.