fall out boy dance dance easy

(/) Slide Up  (\) Slide Down  (h) Hammer On  (p) Pull Off  (b) Bend (r) Release (v) Vibrato


E|--------------------------------------------------------------------------------------------
B|--------------------------------------------------------------------------------------------
G|----------------9-------------9--------------------9--------------------9-------------------
D|--11--9--11--9-----12--11--9-----11--9--12--11--9-----11--9--12--11--9-----11--9--12--------
A|--------------------------------------------------------------------------------------2--4--
E|--------------------------------------------------------------------------------------------



E|----------------------------------------------------------------------------------------------
B|----------------------------------------------------------------------------------------------
G|----------------------------------------------------------------------------------------------
D|--0--2--4--------0--2--4--------0--2--4--------0--2--4--11--9--11-----------------------------
A|-----------2--4-----------2--4-----------2--4----------------------3--3--3--3--5--5--5--------
E|----------------------------------------------------------------------------------------3--3--



E|--------------------------------------------------------------------------------------------
B|--------------------------------------------------------------------------------------------
G|--------------------------------------------------------------------------------------------
D|--------------------------------------------------------------------------------------------
A|--------1--3--3--3--3--5--5--5--------------1--3--3--3--3--3--5--5--5--------------1--3-----
E|--3--2--------------------------3--3--3--2-----------------------------3--3--3--2-----------



E|----------------------------------------------------------------------------------------------
B|----------------------------------------------------------------------------------------------
G|----------------------------------------------------------------------------------------------
D|--------------------------------------11--9-----11--9--12--11--9-----11--9--12--11--9-----11--
A|--3--3--3--3--5--5--5--------------1---------9--------------------9--------------------9------
E|-----------------------3--3--3--2-------------------------------------------------------------



E|-----------------------------------------------------------------------------------------------
B|-----------------------------------------------------------------------------------------------
G|-----------------------------------------------------------------------------------------------
D|--9--12--11--9-----11--9--12--------11--9-----11--9--12--11--9-----11--9--12--11--9-----11--9--
A|----------------9--------------------------9--------------------9--------------------9---------
E|-----------------------------------------------------------------------------------------------



E|---------------------------------------------------------------------------------------------
B|---------------------------------------------------------------------------------------------
G|---------------------------------------------------------------------------------------------
D|--------0--2--4--------0--2--4--------0--2--4--------0--2------------------------------------
A|--2--4-----------2--4-----------2--4-----------2--4------------------3--3--3--3--5--5--5-----
E|---------------------------------------------------------------------------------------------



E|--------------------------------------------------------------------------------------------
B|--------------------------------------------------------------------------------------------
G|--------------------------------------------------------------------------------------------
D|--------------------------------------------------------------------------------------------
A|--------------1--3--3--3--3--5--5--5--------------1--3--3--3--3--5--5--5--------------1--3--
E|--3--3--3--2--------------------------3--3--3--2--------------------------3--3--3--2--------



E|---------------------------------------------------------------------------------------------
B|---------------------------------------------------------------------------------------------
G|---------------------------------------------------------------------------------------------
D|---------------------------------------------------------------------------------------------
A|--3--3--3--5--5--5--------------1------------------------------------------------------------
E|--------------------3--3--3--2---------2--2--2--2--2--2--2--2--0--0--0--0--0--0--0--2--2--2--



E|--------------------------------------------------------------------------------------------
B|--------------------------------------------------------------------------------------------
G|--------------------------------------------------------------------------------------------
D|--------------------------------------------------------------------------------------------
A|-----------------------------2--2--2--2--2--2--2--2--0--0--0--0--0--0--0--------------------
E|--2--2--2--2--2--3--3--3--3-----------------------------------------------2--2--2--2--2-----



E|--------------------------------------------------------------------------------------------
B|--------------------------------------------------------------------------------------------
G|--------------------------------------------------------------------------------------------
D|--------------------------------------------------------------------------------------------
A|-----------------------2--2--2--2--2--2--2--2--3--3--3--3--3--3--3--------------------------
E|--2--2--2--3--3--3--3-----------------------------------------------2--2--2--2--2--2--2--2--



E|--------------------------------------------------------------------------------------------
B|--------------------------------------------------------------------------------------------
G|--------------------------------------------------------------------------------------------
D|--------------------------------------------------------------------------------------------
A|--------------3--3--3--3--5--5--5--------------1--3--3--3--3--5--5--5--------------1--3-----
E|--3--3--3--3-----------------------3--3--3--2--------------------------3--3--3--2-----------



E|-----------------------------------------------------------------------------------------
B|-----------------------------------------------------------------------------------------
G|-----------------------------------------------------------------------------------------
D|-----------------------------------------------------------------------------------------
A|--3--3--3--5--5--5--------------1--3--3--3--3--5--5--5--------------1--3--3--3--3--5-----
E|--------------------3--3--3--2--------------------------3--3--3--2-----------------------



E|-----------------------------------------------------------0-------------------------------
B|-----------------------------------------------------------0-------------------------------
G|-----------------------------------------------------------0-------------------------------
D|-----------------------------------------------------------0----------11--9-----11--9--12--
A|--5--5--------------1--3--3--3--3--5--5--5--------------1--0-----------------9-------------
E|--------3--3--3--2--------------------------3--3--3--2-------------------------------------



E|--------------------------------------------------------------
B|--------------------------------------------------------------
G|--------------------------------------------------------------
D|--11--9-----11--12--11--9-----11--9--12--11--9-----11--9--12--
A|---------9-----------------9--------------------9-------------
E|--------------------------------------------------------------
http://www.guitartabcreator.com
Guitar Tab Creator is intended to store guitar tab created through the tool. It currently does not support in-line text editing. Any text you place in here will be lost. If you need to comment on your tab, please use the "Tab Notes" section located below.