No. 14 Almost Paradise

(/) Slide Up  (\) Slide Down  (h) Hammer On  (p) Pull Off  (b) Bend (r) Release (v) Vibrato


E|--14------12--10-----8--
B|------12----------8-----
G|------------------------
D|------------------------
A|------------------------
E|------------------------



E|--------5--7--------5--7--3--
B|--7--8--------7--8--------3--
G|-----------------------------
D|-----------------------------
A|--------------------------2--
E|--------------------------3--



E|--0--2--3--------0--2--3--0-----------
B|--------3-----3--------3-----0--3-----
G|--------2--2-----------2-----------2--
D|--------------------------------------
A|--------------------------------------
E|--------3--------------3--------------



E|------10--14------12--10-----8--
B|--------------12----------8-----
G|--------------------------------
D|--12----------------------------
A|--------------------------------
E|--------------------------------



E|--------3--------2-----2--3--5--7--
B|-----3--------3--------------------
G|--0--------2--------2--------------
D|-----------------------------------
A|-----------------------------------
E|-----------------------------------



E|--12--10------------------------------------------------
B|----------10--13--12------------------10----------------
G|----------------------12----------12------9------9--12--
D|--------------------------12--12-------------11---------
A|--------------------------------------------------------
E|--------------------------------------------------------



E|--------5--7--
B|--7--8--------
G|--------------
D|--------------
A|--------------
E|--------------
http://www.guitartabcreator.com
Guitar Tab Creator is intended to store guitar tab created through the tool. It currently does not support in-line text editing. Any text you place in here will be lost. If you need to comment on your tab, please use the "Tab Notes" section located below.