No. 11 Let's Hear It For the Boy Solo

(/) Slide Up  (\) Slide Down  (h) Hammer On  (p) Pull Off  (b) Bend (r) Release (v) Vibrato
E|--------------------------7--5--3--2--0--
B|--5--------------------------------------
G|-----4--6--------4--6--4-----------------
D|-----------5--6--------------------------
A|-----------------------------------------
E|-----------------------------------------



E|-----------------------7--5--5--5--
B|--------5--7--5-----5--------------
G|--4--6-----------4-----------------
D|-----------------------------------
A|-----------------------------------
E|-----------------------------------
http://www.guitartabcreator.com
Guitar Tab Creator is intended to store guitar tab created through the tool. It currently does not support in-line text editing. Any text you place in here will be lost. If you need to comment on your tab, please use the "Tab Notes" section located below.