One of your own

(/) Slide Up  (\) Slide Down  (h) Hammer On  (p) Pull Off  (b) Bend (r) Release (v) Vibrato


E|--7--7--7--7--7--8--7--5--5--5--5--5--5--7--5--7--7--7--7--7--7--8--7--2--2--3--
B|--8--8--8--8--8--8--8--7--7--7--7--7--7--7--7--8--8--8--8--8--8--8--8--3--3--5--
G|--------------------------------------------------------------------------------
D|--------------------------------------------------------------------------------
A|--------------------------------------------------------------------------------
E|--------------------------------------------------------------------------------



E|--7--7--7--7--5--5--5--5--3--3--3--3--5--5--5--5--7--7--7--7--5--5--5--5--2--2--3--
B|--8--8--8--8--7--7--7--7--5--5--5--5--7--7--7--7--8--8--8--8--7--7--7--7--3--3--5--
G|-----------------------------------------------------------------------------------
D|-----------------------------------------------------------------------------------
A|-----------------------------------------------------------------------------------
E|-----------------------------------------------------------------------------------
http://www.guitartabcreator.com
Guitar Tab Creator is intended to store guitar tab created through the tool. It currently does not support in-line text editing. Any text you place in here will be lost. If you need to comment on your tab, please use the "Tab Notes" section located below.