Warm-Up Exercises (Left Hand) Example 1 part 1

(/) Slide Up  (\) Slide Down  (h) Hammer On  (p) Pull Off  (b) Bend (r) Release (v) Vibrato


E|--------------13--------------13--------------10--------------10--
B|----------12--------------11--------------11--------------12------
G|------11--------------12--------------12--------------11----------
D|--10--------------10--------------13--------------13--------------
A|------------------------------------------------------------------
E|------------------------------------------------------------------



E|------------------------------------------------------------------
B|--------------13--------------13--------------10--------------10--
G|----------12--------------11--------------11--------------12------
D|------11--------------12--------------12--------------11----------
A|--10--------------10--------------13--------------13--------------
E|------------------------------------------------------------------



E|------------------------------------------------------------------
B|------------------------------------------------------------------
G|--------------13--------------13--------------10--------------10--
D|----------12--------------11--------------11--------------12------
A|------11--------------12--------------12--------------11----------
E|--10--------------10--------------13--------------13--------------
http://www.guitartabcreator.com
Guitar Tab Creator is intended to store guitar tab created through the tool. It currently does not support in-line text editing. Any text you place in here will be lost. If you need to comment on your tab, please use the "Tab Notes" section located below.