Mission Impossible

(/) Slide Up  (\) Slide Down  (h) Hammer On  (p) Pull Off  (b) Bend (r) Release (v) Vibrato


E|----------------------------------------------------------------------------------------------------
B|----------------------------------------------------------------------------------------------------
G|-------------------------------------3-0---3-0---3-0------------------------------------------------
D|-----------------------------------------0----------------------------------------------------------
A|-----1-3-------------1-3-----------------------4-----3-1-3-------------1-3-------------1-3----------
E|-3-3-----3-3-1-2-3-3-----3-3-1-2-3-3-----------------------3-3-1-2-3-3-----3-3-1-2-3-3-----3-3-1-2-3



E|--------2-----1-----0-----------------
B|--------------------------------------
G|----3-0---3-0---3-0-------------------
D|--------------------------------------
A|--------------------------1-3---------
E|-3--------------------3-3-----3-3-1-2-

Guitar Tab Creator is intended to store guitar tab created through the tool. It currently does not support in-line text editing. Any text you place in here will be lost. If you need to comment on your tab, please use the "Tab Notes" section located below.