The godfather

(/) Slide Up  (\) Slide Down  (h) Hammer On  (p) Pull Off  (b) Bend (r) Release (v) Vibrato


E|-----0--3--2--0--3--0--2--0--------------0--3--2--0--3--0--2--0--------------------2-----------0--
B|--0--------------------------1--3--0--0--------------------------0-----------1--4--------1--4-----
G|--------------------------------------------------------------------3--2--2-----------2-----------
D|--------------------------------------------------------------------------------------------------
A|--------------------------------------------------------------------------------------------------
E|--------------------------------------------------------------------------------------------------



E|--------------------------------------0--0--------2--0--------------------------------
B|--------3--1--0--3--1--1--0--0--------------4--3--------1--0--0--3--0--------1-----0--
G|-----0-----------------------------------------------------------------2--2-----3-----
D|--2-----------------------------1--2--------------------------------------------------
A|--------------------------------------------------------------------------------------
E|--------------------------------------------------------------------------------------



E|-----0--3--2--0--3--0--2--0--------------0--3--2--0--3--0--2--0--------------------2-----------0--
B|--0--------------------------1--3--0--0--------------------------0-----------1--4--------1--4-----
G|--------------------------------------------------------------------3--2--2-----------2-----------
D|--------------------------------------------------------------------------------------------------
A|--------------------------------------------------------------------------------------------------
E|--------------------------------------------------------------------------------------------------



E|-----------------------------------0--
B|--------3--1--0--3--1--1--0--0--4-----
G|-----0--------------------------------
D|--2-----------------------------------
A|--------------------------------------
E|--------------------------------------
http://www.guitartabcreator.com
Guitar Tab Creator is intended to store guitar tab created through the tool. It currently does not support in-line text editing. Any text you place in here will be lost. If you need to comment on your tab, please use the "Tab Notes" section located below.