Spanish Study (2nd Part)

[code]
(/) Slide Up (\) Slide Down (h) Hammer On (p) Pull Off (b) Bend (r) Release (v) Vibrato

E|--------0--------0--------0--------0--------0--------0--
B|--------------------------------------------------------
G|-----2--------2--------2--------2--------2--------2-----
D|-----------2--------3--------0--------2-----------------
A|--0--------------------------------------------3--------
E|--------------------------------------------------------



E|--------0--------0--------0--------0--------0--------0--
B|--------------------------------------------------------
G|-----2--------2--------2--------2--------2--------2-----
D|-----------2--------3--------0--------2-----------------
A|--0--------------------------------------------3--------
E|--------------------------------------------------------



E|--------0--------0--------0--------0--------0--------0--
B|--------------------------------------------------------
G|-----2--------2--------2--------2--------2--------2-----
D|-----------2--------3--------0--------2--------3--------
A|--0-----------------------------------------------------
E|--------------------------------------------------------



E|--------0--------0--------0--------0--------0--------0--
B|--------------------------------------------------------
G|-----2--------2--------2--------2--------2--------2-----
D|--0--------------------------0--------------------------
A|-----------2--------3-----------------2--------3--------
E|--------------------------------------------------------



E|--------0--------0--------0--------0--------0--------0--
B|--------------------------------------------------------
G|-----2--------2--------2--------2--------2--------2-----
D|-----------2--------3--------0--------2-----------------
A|--0--------------------------------------------3--------
E|--------------------------------------------------------



E|--------0--------0--------0--------0--------0--------0--
B|--------------------------------------------------------
G|-----2--------2--------2--------2--------2--------2-----
D|-----------2--------3--------0--------2-----------------
A|--0--------------------------------------------3--------
E|--------------------------------------------------------



E|--------0--------0--------0--------0--------0--------0--
B|--------------------------------------------------------
G|-----2--------2--------2--------2--------2--------2-----
D|-----------2--------3--------0--------2-----------------
A|--0--------------------------------------------3--------
E|--------------------------------------------------------



E|--------0--------0--------0--------0--------0--------0-----
B|-----------------------------------------------------------
G|-----2--------2--------2--------2--------2--------2--------
D|--0--------------------------------------------------------
A|-----------2--------3--------0-----------------------------
E|--------------------------------------3--------0--------0--
[/code]
[url]http://www.guitartabcreator.com[/url]
Guitar Tab Creator is intended to store guitar tab created through the tool. It currently does not support in-line text editing. Any text you place in here will be lost. If you need to comment on your tab, please use the "Tab Notes" section located below.