Spanish Study (1st Part)

(/) Slide Up  (\) Slide Down  (h) Hammer On  (p) Pull Off  (b) Bend (r) Release (v) Vibrato
t: E E E E E E E E E E E E E E E E E E E E E E E E
E|-----0-----0-----0-----0-----0-----0-----0-----0-----0-----0-----0-----0--
B|--------------------------------------------------------------------------
G|--------------------------------------------------------------------------
D|--------2-----3-----0-----2-----------------2-----3-----0-----2-----------
A|--0-----------------------------3-----0-----------------------------3-----
E|--------------------------------------------------------------------------


t: E E E E E E E E E E E E E E E E E E E E E E E E
E|-----0-----0-----0-----0-----0-----0-----0-----0-----0-----0-----0-----0--
B|--------------------------------------------------------------------------
G|--------------------------------------------------------------------------
D|--------2-----3-----0-----2-----------0-----------------0-----------------
A|--0-----------------------------3-----------2-----3-----------2-----3-----
E|--------------------------------------------------------------------------


t: E E E E E E E E E E E E E E E E E E E E E E E E
E|-----0-----0-----0-----0-----0-----0-----0-----0-----0-----0-----0-----0--
B|--------------------------------------------------------------------------
G|--------------------------------------------------------------------------
D|--------2-----3-----0-----2-----------------2-----3-----0-----2-----------
A|--0-----------------------------3-----0-----------------------------3-----
E|--------------------------------------------------------------------------


t: E E E E E E E E E E E E E E E E E E E E E E E E
E|-----0-----0-----0-----0-----0-----0-----0-----0-----0-----0-----0-----0--
B|--------------------------------------------------------------------------
G|--------------------------------------------------------------------------
D|--------2-----3-----0-----2-----------0-----------------------------------
A|--0-----------------------------3-----------2-----3-----0-----------------
E|--------------------------------------------------------------3-----0-----


t: E E E E E E E E E E E E E E E E E E E E E E E E
E|-----0-----0-----0-----0-----0-----0-----0-----0-----0-----0-----0-----0--
B|--------------------------------------------------------------------------
G|--------------------------------------------------------------------------
D|--------1-----3-----0-----2-----------------2-----3-----0-----2-----------
A|--------------------------------2-----------------------------------2-----
E|--0-----------------------------------0-----------------------------------


t: E E E E E E E E E E E E E E E E E E E E E E E E
E|-----0-----0-----0-----0-----0-----0-----0-----0-----0-----0-----0-----0--
B|--------------------------------------------------------------------------
G|--------------------------------0-----------------------------------------
D|--------------0-----2-----3-----------2-----3-----0-----2-----------------
A|--------2-----------------------------------------------------3-----2-----
E|--0-----------------------------------------------------------------------


t: E E E E E E E E E E E E E E E E E E E E E E E E
E|-----0-----0-----0-----0-----0-----0-----0-----0-----0-----0-----0-----0--
B|--------------------------------------------------------------------------
G|--------------------------------------------------------------------------
D|--------2-----3-----0-----2-----------------2-----3-----0-----2-----------
A|--------------------------------2-----------------------------------2-----
E|--0-----------------------------------0-----------------------------------



E|-----0-----0-----0-----0-----0-----0-----0-----0-----0-----0-----0-----0--
B|--------------------------------------------------------------------------
G|--------------------------0-----------------------------------------------
D|--------0-----2-----3-----------2-----3-----0-----2-----------0-----------
A|--------------------------------------------------------3-----------2-----
E|--0-----------------------------------------------------------------------
http://www.guitartabcreator.com
Guitar Tab Creator is intended to store guitar tab created through the tool. It currently does not support in-line text editing. Any text you place in here will be lost. If you need to comment on your tab, please use the "Tab Notes" section located below.