slow song (aka demoishh on soundcloud)

(/) Slide Up  (\) Slide Down  (h) Hammer On  (p) Pull Off  (b) Bend (r) Release (v) Vibrato

verse
E|--------------
B|--------------
G|--------------
D|--------------
A|--------------
E|--7--5--2--3--


pre chorus
E|--------------------------------------------------------------
B|--------------------------------------------------------------
G|--------------------------------------------------------------
D|--------------------------------------------------------------
A|--------------------------------------------------------------
E|--7--7--7--7--12--12--12--12--10--10--10--10--14--14--14--14--


chorus
E|----------------------------------------------------------------------------------------------
B|----------------------------------------------------------------------------------------------
G|----------------------------------------------------------------------------------------------
D|----------------------------------------------------------------------------------------------
A|----------------------------------------------------------------------------------------------
E|--10--10--10--10--10--10--10--10--10--12--12--12--12--14--14--14--14--14--14--14--14--15--14--


outro
E|--------------------------------------------------------------------------------------------------
B|--------------------------------------------------------------------------------------------------
G|--------------------------------------------------------------------------------------------------
D|--------------------------------------------------------------------------------------------------
A|--------------------------------------------------------------------------------------------------
E|--7--7--7--7--7--7--7--7--5--5--5--5--5--5--5--5--2--2--2--2--2--2--2--2--3--3--3--3--3--3--3--3--
http://www.guitartabcreator.com
Guitar Tab Creator is intended to store guitar tab created through the tool. It currently does not support in-line text editing. Any text you place in here will be lost. If you need to comment on your tab, please use the "Tab Notes" section located below.