narcs pleasures

(/) Slide Up  (\) Slide Down  (h) Hammer On  (p) Pull Off  (b) Bend (r) Release (v) Vibrato
verse
E|------------------------------------------------------------------------------------------------
B|------------------------------------------------------------------------------------------------
G|------------------------------------------------------------------------------------------------
D|------------------------------------------------------------------------------------------------
A|--------9----------------9-------------9--------------------9------------7----------------7-----
E|--7--7-----7----7--7--7-----7--10--10-----10----10--10--10-----10--5--5-----5----5--5--5-----5--



E|---------------------------------
B|---------------------------------
G|---------------------------------
D|---------------------------------
A|--------5------------------4-----
E|--3--3-----3------2--2--2-----2--

Preverse

E|-------------------------------------------------------------
B|-------------------------------------------------------------
G|-------------------------------------------------------------
D|-------------------------------------------------------------
A|-------------------------------------------------------------
E|--7--7--7--7--10--10--10--10--5--5--5--5--10--10--10--10-----



E|-----------------------------------------------------------------
B|-----------------------------------------------------------------
G|-----------------------------------------------------------------
D|-----------------------------------------------------------------
A|-----------------------------------------------------------------
E|--12--12--12--12--12--12--12--12--14--14--14--14--14--14--14--14\

Chorus

E|------------------------------------------------------------
B|------------------------------------------------------------
G|------------------------------------------------------------
D|------------------------------------------------------------
A|--------10--10----------10--10--7--7--10--10--5--5--5--5--5\
E|--7--7----------10--10--------------------------------------
http://www.guitartabcreator.com
Guitar Tab Creator is intended to store guitar tab created through the tool. It currently does not support in-line text editing. Any text you place in here will be lost. If you need to comment on your tab, please use the "Tab Notes" section located below.