demo 2

(/) Slide Up  (\) Slide Down  (h) Hammer On  (p) Pull Off  (b) Bend (r) Release (v) Vibrato
Verse
E|--------------------------------------------------
B|-------------------------------------------------- This is the harder version of the verse,
G|-------------------------------------------------- x2 You can play the easier version (the one yo
D|--------------------------------------------4----- been playing in practice) if you want
A|----------------6--9--6------------------6-----6--
E|--7--7----7--7-------------4--4----4--4-----------



E|--------------------------------------------------
B|--------------------------------------------------
G|-------------------4------------------------------ x2
D|----------------6-----6------------------6--9--6--
A|--4--4----4--4-------------7--7----7--7-----------
E|--------------------------------------------------


intro
E|--------------------------
B|--------------------------
G|--------------------------
D|--------------------------
A|--------------7--4--7--4-- These are just the notes to play, you can figure out the
E|--7--4--7--4-------------- how many times to play them and the rythme your self

Chorus

E|-----------
B|-----------
G|-----------
D|----------- Again just the notes
A|-----7-----
E|--7--------


outro bit
E|-----------------------------------------------------------------------------
B|-----------------------------------------------------------------------------
G|-----------------------------------------------------------------------------
D|-----------------------------------------------------------------------------
A|--4--4--4--4--4-----------------7--7--7--7--7--7--7--7--7--7--7--7--7--7--7--
E|-----------------2--2--2--2--2-----------------------------------------------
http://www.guitartabcreator.com
Guitar Tab Creator is intended to store guitar tab created through the tool. It currently does not support in-line text editing. Any text you place in here will be lost. If you need to comment on your tab, please use the "Tab Notes" section located below.