that song that sounds like some other song

(/) Slide Up  (\) Slide Down  (h) Hammer On  (p) Pull Off  (b) Bend (r) Release (v) Vibrato


E|----------------------------------------------
B|-----4--6--4-----4--6-----4--6--4-----4--6h8--
G|--5-----------4--------5-----------4----------
D|----------------------------------------------
A|----------------------------------------------
E|----------------------------------------------



E|--------8h10--8------8-----8--
B|-----8-----------10-----9-----
G|--9---------------------------
D|------------------------------
A|------------------------------
E|------------------------------
http://www.guitartabcreator.com
Guitar Tab Creator is intended to store guitar tab created through the tool. It currently does not support in-line text editing. Any text you place in here will be lost. If you need to comment on your tab, please use the "Tab Notes" section located below.