fuck you

(/) Slide Up  (\) Slide Down  (h) Hammer On  (p) Pull Off  (b) Bend (r) Release (v) Vibrato


E|--9--9--11--9-----------------------------7---------7--
B|---------------9--7-----7h9-- --------9---------9-----
G|---------------------9----------9--11--------11--------
D|-------------------------------------------------------
A|-------------------------------------------------------
E|-------------------------------------------------------



E|-----------7-----------5--
B|--------8-----------7-----
G|-----9-----------7--------
D|--9-----------7-----------
A|--------------------------
E|--------------------------
http://www.guitartabcreator.com
Guitar Tab Creator is intended to store guitar tab created through the tool. It currently does not support in-line text editing. Any text you place in here will be lost. If you need to comment on your tab, please use the "Tab Notes" section located below.