the faceless create

(/) Slide Up  (\) Slide Down  (h) Hammer On  (p) Pull Off  (b) Bend (r) Release (v) Vibrato


E|--------------------------------
B|--------------------------------
G|--------------0-----------------
D|--------3--------3--------------
A|-----5-----5--------5-----------
E|--5--------------------5--5-----



E|----------------------------------------
B|------------------------15--------------
G|--17----------------15------14----------
D|------10--12--5-----------------14------
A|-----------------6------------------15--
E|----------------------------------------
http://www.guitartabcreator.com
Guitar Tab Creator is intended to store guitar tab created through the tool. It currently does not support in-line text editing. Any text you place in here will be lost. If you need to comment on your tab, please use the "Tab Notes" section located below.