Blind Light

(/) Slide Up  (\) Slide Down  (h) Hammer On  (p) Pull Off  (b) Bend (r) Release (v) Vibrato


E|--------------------------------------------------------------------------------------------------
B|--------------------------------------------------------------------------------------------------
G|--------------------------------------------------------------------------------------------------
D|--------------------------------------------------------------------------------------------------
A|--------------------------------------3--2--------------------------------------------5--3--2-----
E|--0--0--0--0--0--0--0--0--0--0--0--0--------3--2--0--0--0--0--0--0--0--0--0--0--0--0-----------3--



E|------------------------------------------------------------------------------------------------
B|------------------------------------------------------------------------------------------------
G|------------------------------------------------------------------------------------------------
D|------------------------------------------------------------------------------------------------
A|--------------------------------------3--2--------------------------------------------------3v--
E|--0--0--0--0--0--0--0--0--0--0--0--0--------3--2--3--3--3--3--3--3--3--3--2--2--2--2--2--2------



E|--------------------------------------------------------------------------------------------------
B|--------------------------------------------------------------------------------------------------
G|--------------------------------------------------------------------------------------------------
D|--------------------------------------------------------------------------------------------------
A|--5--5--5--5--5--5--5--5--8--8--8--8--7--7--7--7--3--3--3--3--3--3--3--3--5--5--5--5--5--5--5--5--
E|--------------------------------------------------------------------------------------------------



E|------------------------------------------------------------------------------------------------------
B|------------------------------------------------------------------------------------------------------
G|------------------------------------------------------------------------------------------------------
D|------------------------------------------------------------------------------------------------------
A|--5--5--5--5--5--5--5--5--8--8--8--8--10--10--10--10--3--3--3--3--3--3--3--3--5--5--5--5--5--5--5-----
E|------------------------------------------------------------------------------------------------------



E|-----------------------------------------------------------------------------------------
B|-----------------------------------------------------------------------------------------
G|-----------------------------------------------------------------------------------------
D|-----------------------------------------------------------------------------------------
A|-----------------------------------------------------------------------------------------
E|--12--12--12--12--12--12--12--12--12--15--12--15--8--8--8--8--8--8--5--5--5--5--3--3--3--



E|-----------------------------------------------------------------------------------------------------------
B|-----------------------------------------------------------------------------------------------------------
G|-----------------------------------------------------------------------------------------------------------
D|-----------------------------------------------------------------------------------------------------------
A|-----------------------------------------------------------------------------------------------------------
E|--8--8--8--8--8--8--8--8--8--8--8--8--8--8--8--10--10--10--10--10--10--10--10--10--10--10--10--10--10--10--



E|--------------------------------------------------------------------------------------------------
B|--------------------------------------------------------------------------------------------------
G|--------------------------------------------------------------------------------------------------
D|--------------------------------------------------------------------------------------------------
A|--7--7--7--7--7--7--7--7--7--7--7--3--3--3--3--3--3--3--3--3--3--3--5--5--5--5--5--5--5--5--5-----
E|--------------------------------------------------------------------------------------------------



E|-----------------------------
B|-----------------------------
G|-----------------------------
D|-----------------------------
A|--7--7--7--7--7--7--7--7--7--
E|-----------------------------



E|-----------------------------------------------------------------------------------------------
B|-----------------------------------------------------------------------------------------------
G|-----------------------------------------------------------------------------------------------
D|-----------------------------------------------------------------------------------------------
A|--7--7--7--7--7--7--7--7--7--7--7--7--5--5--5--5--5--5--3--3--3--------------------------------
E|-----------------------------------------------------------------8--6--5--0--0--0--0--0--0--0--



E|--------------------------------------------------------------------------------------------------
B|--------------------------------------------------------------------------------------------------
G|--------------------------------------------------------------------------------------------------
D|--------------------------------------------------------------------------------------------------
A|--------------------------------------------------------------------------------------------------
E|--6--5--0--3--0--0--0--0--0--0--0--6--5--6--8--6--5--0--3--0--0--0--0--0--0--0--6--5--0--3--0--0--



E|--------------------------------
B|--------------------------------
G|--------------------------------
D|--------------------------------
A|--------------------------------
E|--0--0--6--6--6--6--5--5--5--5--
http://www.guitartabcreator.com
Guitar Tab Creator is intended to store guitar tab created through the tool. It currently does not support in-line text editing. Any text you place in here will be lost. If you need to comment on your tab, please use the "Tab Notes" section located below.