Untitled Chorus Riff

(/) Slide Up  (\) Slide Down  (h) Hammer On  (p) Pull Off  (b) Bend (r) Release (v) Vibrato

E|--------0-----0-----------0-----0-----------0-----0-----------0-----0-----
B|-----1-----1-----1-----1-----1-----1-----1-----1-----1-----1-----1-----1--
G|--------------------------------------------------------------------------
D|--------------------------------------3-----------------------------------
A|--3-----------------3-----------------------------------3-----------------
E|--------------------------------------------------------------------------



E|--------0-----0-----------0-----0-----------0-----0--------0-----0--------
B|-----1-----1-----1-----1-----1-----1-----3-----3--------1-----1-----1-----
G|--------------------------------------------------------------------------
D|--------------------------------------------------------------------------
A|--0-----------------0-----------------0--------------0--------------------
E|--------------------------------------------------------------------------



E|--------0-----------0-----------1-----------1-----
B|-----0-----0-----0-----0-----1-----1-----1-----1--
G|--------------------------------------------------
D|--------------------------------------------------
A|--------------------------------------------------
E|--0-----------0-----------1-----------1-----------
http://www.guitartabcreator.com
Guitar Tab Creator is intended to store guitar tab created through the tool. It currently does not support in-line text editing. Any text you place in here will be lost. If you need to comment on your tab, please use the "Tab Notes" section located below.