Southbound - banjo tab

(/) Slide Up  (\) Slide Down  (h) Hammer On  (p) Pull Off  (b) Bend (r) Release (v) Vibrato

E|-----2--------2-----2--------3--------2-----2-----
B|--------3--------3-----3--------2--------3-----3--
G|--------------------------------------------------
D|--------------------------------------------------
A|--5--------2-----------------------5--------------
E|--------------------------5-----------------------



E|------9---------
B|-------------9--
G|---------10-----
D|--11------------
A|----------------
E|----------------



E|-----7--------
B|-----------7--
G|--------7-----
D|--9-----------
A|--------------
E|--------------



E|-----5-----------
B|-----------5-----
G|--------6--------
D|--7--------------
A|-----------------
E|-----------------



E|-----4--------
B|-----------3--
G|--------3-----
D|--5-----------
A|--------------
E|--------------



E|-----2--------2--------2-----2-----2--------------
B|--------3--------3--------------3-----------------
G|--------------------------------------------------
D|--------------------------------------------------
A|--5--------5--------5-----5-----------5--4--5--4--
E|--------------------------------------------------



E|-----5--------5--------5-----5-----5--------------
B|--------2--------2--------------2-----------------
G|--------------------------------------------------
D|--------------------------------------------------
A|--------------------------------------4--2--4--2--
E|--5--------5--------5-----5-----------------------
http://www.guitartabcreator.com
Guitar Tab Creator is intended to store guitar tab created through the tool. It currently does not support in-line text editing. Any text you place in here will be lost. If you need to comment on your tab, please use the "Tab Notes" section located below.