x3dflkasdjfl;kasjdfasdfawefasdf

(/) Slide Up  (\) Slide Down  (h) Hammer On  (p) Pull Off  (b) Bend (r) Release (v) Vibrato


E|-----------------------3-----------------------
B|--1-----------3-----------1-----3-----3--------
G|--------0--------0-----------0-----0-----0-----
D|-----0-----0--------0--------------------------
A|--3--------------------------------------------
E|-----------------------------------------------



E|-----------------------------------------------------------------3-----------------------
B|--1--------------------3--------------------1-----------------------------------------0--
G|--------0-----0-----0--------0-----0-----0--------0-----0-----0--------0-----0-----0-----
D|-----0-----0-----0--------0-----0-----0--------0-----0-----0--------0-----0-----0--------
A|--3--------------------------------------------------------------------------------------
E|-----------------------------------------------------------------------------------------



E|--
B|--
G|--
D|--
A|--
E|--
http://www.guitartabcreator.com
Guitar Tab Creator is intended to store guitar tab created through the tool. It currently does not support in-line text editing. Any text you place in here will be lost. If you need to comment on your tab, please use the "Tab Notes" section located below.