x3

(/) Slide Up  (\) Slide Down  (h) Hammer On  (p) Pull Off  (b) Bend (r) Release (v) Vibrato

E|-----------3--------------3-----0--------0--------------2-----------------4-----------------3p0--
B|--1-----1-----1--3-----3-----3-----0--------2--3-----------3-----5-----------5-----1-----1-------
G|-----2--------------0-----------------2-----------4-----------4-----6-----------6-----2----------
D|-----------------------------------------------------4-----------------6-------------------------
A|--0--------------3--------------0--------------2-----------------4-----------------0-------------
E|-------------------------------------------------------------------------------------------------



E|-----------------------3--------------------------------3--------0-----
B|--1-----------3-----------1-----3--1-----------3-----------1-----------
G|--------0--------0-----------0-----------0--------0-----------0--------
D|-----0-----0--------0-----------------0-----0--------0-----------------
A|--3--------------------------------3-----------------------------------
E|-----------------------------------------------------------------------



E|-----------------------3--------0h1p0--------------------------
B|--1-----------3-----------1------------1-----------3--------0--
G|--------0--------0-----------0---------------0--------0--------
D|-----0-----0--------0---------------------0-----0--------0-----
A|--3------------------------------------3-----------------------
E|---------------------------------------------------------------



E|--3----3--3--3--3--3----3--3--3--3--0----0--0--0--0--0----0--3--
B|--3----3--3--3--3--3----3--3--3--3--1----1--1--1--1--0----0--3--
G|--0----0--0--0--0--0----0--0--0--0--2----2--2--2--2--0----0--0--
D|--0----0--0--0--0--2----2--2--2--2--2----2--2--2--2--2----2--0--
A|--2----2--2--2--2--3----3--3--3--3--0----0--0--0--0--2----2--2--
E|--3----3--3--3--3--3-----------------------------------------3--
http://www.guitartabcreator.com
Guitar Tab Creator is intended to store guitar tab created through the tool. It currently does not support in-line text editing. Any text you place in here will be lost. If you need to comment on your tab, please use the "Tab Notes" section located below.