waking the demon solo

(/) Slide Up  (\) Slide Down  (h) Hammer On  (p) Pull Off  (b) Bend (r) Release (v) Vibrato


E|----------17b--17-21-17-16-------------
B|-17b17-14------------------17----------
G|------------------------------16\14----
D|---------------------------------------
A|---------------------------------------
E|---------------------------------------



E|-------------------------------------------------------------------
B|----------------------------------------15-------15-16----15-16b19-
G|-------------14-------14-16----14-16-18----16-18-------18----------
D|-18-14-16-18----16-18-------18-------------------------------------
A|-------------------------------------------------------------------
E|-------------------------------------------------------------------



E|-17-19-17-16-17-16----16----17-14-17-14-17-14-17-14-17-14-17-14-14-17-16-13-16-13-13-16-13-16-13---
B|-------------------18------------------------------------------------------------------------------
G|-------------------------18------------------------------------------------------------------------
D|---------------------------------------------------------------------------------------------------
A|---------------------------------------------------------------------------------------------------
E|---------------------------------------------------------------------------------------------------



E|--------------------------------------------
B|-15-14----14-12----12-10----10-9----9-7---9-
G|-------16-------14-------12------11-----9---
D|--------------------------------------------
A|--------------------------------------------
E|--------------------------------------------



E|-9-5---5-9-5-9-5---5-9-5-9-5---5-7-4---4-7-4-7-4---4-7-4-7-4---4-12-9----9-12-9-12-9----9---
B|-----7-----------7-----------7-------5-----------5-----------5--------10-------------10-----
G|--------------------------------------------------------------------------------------------
D|--------------------------------------------------------------------------------------------
A|--------------------------------------------------------------------------------------------
E|--------------------------------------------------------------------------------------------



E|-12-9-12-9----9-7-4---4-7-4-7-4---4-7-4-7-4---5-9-5---5-9-5-9-5---5-9-5-9-5---5-7-4---4-7-4---
B|-----------10-------5-----------5-----------5-------7-----------7-----------7-------5---------
G|----------------------------------------------------------------------------------------------
D|----------------------------------------------------------------------------------------------
A|----------------------------------------------------------------------------------------------
E|----------------------------------------------------------------------------------------------



E|-7-4---4-7-4-7-4---4-12-9----9-12-9-12-9----9-12-9-12-9----9b12-
B|-----5-----------5--------10-------------10-------------10------
G|----------------------------------------------------------------
D|----------------------------------------------------------------
A|----------------------------------------------------------------
E|----------------------------------------------------------------
http://www.guitartabcreator.com
Guitar Tab Creator is intended to store guitar tab created through the tool. It currently does not support in-line text editing. Any text you place in here will be lost. If you need to comment on your tab, please use the "Tab Notes" section located below.