scream aim fire solo

(/) Slide Up  (\) Slide Down  (h) Hammer On  (p) Pull Off  (b) Bend (r) Release (v) Vibrato

E|--------15-12-12-12-14-12-12-12-15-12-12-12-17-12-12-12-15-12-12-12-14-12-12-12-------
B|-15v-12-------------------------------------------------------------------------15b15-
G|-14-----------------------------------------------------------------------------------
D|--------------------------------------------------------------------------------------
A|--------------------------------------------------------------------------------------
E|--------------------------------------------------------------------------------------



E|-------15-19-15----------15-19-15----------14-17-14----------14-17-14----
B|----17----------17----17----------17----16----------16----16----------16-
G|-16----------------16----------------14----------------14----------------
D|-------------------------------------------------------------------------
A|-------------------------------------------------------------------------
E|-------------------------------------------------------------------------



E|----19-17-15-17v----19-17-15-14v----19-17-19-15-19-14-19----------14-15v-
B|-17--------------17--------------17----------------------17-15-17--------
G|-------------------------------------------------------------------------
D|-------------------------------------------------------------------------
A|-------------------------------------------------------------------------
E|-------------------------------------------------------------------------



E|-19-12-15-12-19-12-15-12-19-12-15-12-19-12-15-12-18-12-14-12-18-12-14-12-18-12-14-12-18-12-14-12-
B|-------------------------------------------------------------------------------------------------
G|-------------------------------------------------------------------------------------------------
D|-------------------------------------------------------------------------------------------------
A|-------------------------------------------------------------------------------------------------
E|-------------------------------------------------------------------------------------------------



E|--------------------------------------------------------------14--15--17------------
B|--------------------------------------------------13--15--17--------------12--------
G|--------------------------------------12--14--16--------------------------15--------
D|--------------------------12--14--16------------------------------------------------
A|--------------12--14--15------------------------------------------------------------
E|--12--14--15------------------------------------------------------------------------
http://www.guitartabcreator.com
Guitar Tab Creator is intended to store guitar tab created through the tool. It currently does not support in-line text editing. Any text you place in here will be lost. If you need to comment on your tab, please use the "Tab Notes" section located below.