sckfjusdofiaspodfiawdfoasdfs

(/) Slide Up  (\) Slide Down  (h) Hammer On  (p) Pull Off  (b) Bend (r) Release (v) Vibrato


E|---------------3-----------------3-1---------------3-0---------0h3p0-----
B|-1-------1h3p1---3-------------------1-------1h3p1-----3-------------3-1-
G|-----0-------------2-------2-------------2-----------------0-------------
D|---0---0---------------3-----3---------2---2-------------2---2-----------
A|-3-------------------3---3-----3-----0-----------------3-----------------
E|-------------------1-----------------------------------------------------



E|---------7-----5---------5-
B|-----------5-----7---7-----
G|-6-----------6-----6---6---
D|-----7---------------------
A|---7---7-------------------
E|-5-------------------------
http://www.guitartabcreator.com
Guitar Tab Creator is intended to store guitar tab created through the tool. It currently does not support in-line text editing. Any text you place in here will be lost. If you need to comment on your tab, please use the "Tab Notes" section located below.