own created song 3

(/) Slide Up  (\) Slide Down  (h) Hammer On  (p) Pull Off  (b) Bend (r) Release (v) Vibrato


E|---------------------------------------------------------------
B|---------------------------------------------------------------
G|-9-----9-----10---7-----7-----9-----5-----5-----7--4-4-4-6-6-6-
D|---------------------------------------------------------------
A|-7-----7-----8----5-----5-----7-----3-----3-----5--2-2-2-4-4-4-
E|---0-0---0-0----0---0-0---0-0---0-0---0-0---0-0----------------



E|--------------------------------------------------------------------
B|--------------------------------------------------------------------
G|-9-----9-----10---12-----12-----12---7-----7-----7---9-9-9-11-11-11-
D|--------------------------------------------------------------------
A|-7-----7-----8----10-----10-----10---5-----5-----5---7-7-7-9--9--9--
E|---0-0---0-0----0----0-0----0-0----0---0-0---0-0---0----------------



E|-----------------------------------------------------------------------
B|-----------------------------------------------------------------------
G|---------------9-------------------------------9---8-------------------
D|-----9---8---------8---6-9-8---------9---8-------------11-9-8----8-----
A|--------------------------------------------------------------11---9-7-
E|-6-6---6---6-6---6---6-----------6-6---6---6-6---6---6-----------------



E|--------------------------------------------------------------------
B|--------------------------------------------------------------------
G|---------------9------------------------------9---8-----------------
D|-----9---8---------8---6-9-8--------9---8-------------8-6-5---5-----
A|------------------------------------------------------------8---6-4-
E|-6-6---6---6-6---6---6----------6-6---6---6-6---6---6---------------



E|------------------------------------------------------
B|------------------------------------------------------
G|-9-9-9-9-9-10-7-7-7-7-7-9-5-5-5-5-5-7-4-4-4-4-6-6-6-6-
D|------------------------------------------------------
A|-7-7-7-7-7-8--5-5-5-5-5-7-3-3-3-3-3-5-2-2-2-2-4-4-4-4-
E|------------------------------------------------------



E|----------------------------------------------------------------
B|----------------------------------------------------------------
G|-9-9-9-9-9-10-12-12-12-12-12-12-7-7-7-7-7-7-9-9-9-9-11-11-11-11-
D|----------------------------------------------------------------
A|-7-7-7-7-7-8--10-10-10-10-10-10-5-5-5-5-5-5-7-7-7-7-9--9--9--9--
E|----------------------------------------------------------------



E|-
B|-
G|-
D|-
A|-
E|-
http://www.guitartabcreator.com
Guitar Tab Creator is intended to store guitar tab created through the tool. It currently does not support in-line text editing. Any text you place in here will be lost. If you need to comment on your tab, please use the "Tab Notes" section located below.