own created song 2

(/) Slide Up  (\) Slide Down  (h) Hammer On  (p) Pull Off  (b) Bend (r) Release (v) Vibrato


E|--------------------------------------------------
B|--------------------------------------------------
G|--------------------------------------------------
D|--------------------------------------------------
A|--------3-----1-----------3--0--1--0--3--0--1--0--
E|--0--0-----0-----0--0--0--3--0--1--0--3--0--1--0--



E|-------------------------------------------------
B|-------------------------------------------------
G|-------------------------------------------------
D|-------------------------------------------------
A|--------3-----1-----------7--8--7--5--7--5--7\5--
E|--0--0-----0-----0--0--0-------------------------



E|--------------------------------------------------------------------
B|--------------------------------------------------------------------
G|--------------------------------------------------------------------
D|--------3--------5--------3--5--------------3--------7--------5--7--
A|--------3--------5--------3-----------------3--------7--------5-----
E|--0--0--3--0--0--5--0--0--3-----------0--0--3--0--0--7--0--0--5-----



E|-------------------------------------------------------------------------------------
B|-------------------------------------------------------------------------------------
G|-------------------------------------------------------------------------------------
D|--------3--------5--------3--5--------------3--------7-------------------------------
A|--------3--------5--------3-----------------3--------7--------6--7--6--4--6--4--6\4--
E|--0--0--3--0--0--5--0--0--3-----------0--0--3--0--0--7--0--0-------------------------



E|--------------------------------------------------------------------------------
B|--------------------------------------------------------------------------------
G|--------------------------------------------------------------------------------
D|--------------------------------------------------------------------------------
A|--------------------------------------------------------------------------------
E|--5--0--0--6--0--0--5--0--0--3--3--3--3--5--0--0--6--0--0--5--0--0--3--3--3--3--



E|---------------------------------------------------------------------
B|---------------------------------------------------------------------
G|---------------------------------------------------------------------
D|---------------------------------------------------------------------
A|---------------------------------------------------------------------
E|--5--0--0--6--0--0--5--0--0--3--3--3--3--10--8--7--10--8--7--8--7\3--
http://www.guitartabcreator.com
Guitar Tab Creator is intended to store guitar tab created through the tool. It currently does not support in-line text editing. Any text you place in here will be lost. If you need to comment on your tab, please use the "Tab Notes" section located below.