afdfafdfafdfafdfafdfafdf

[code]
(/) Slide Up (\) Slide Down (h) Hammer On (p) Pull Off (b) Bend (r) Release (v) Vibrato


E|-----------------------------------------------------------------------------------------
B|-----------------------------------------------------------------------------------------
G|-----------7---------------------------5---------------------------3---------------------
D|-----7-----------7-----7/8\7-----5-----------5-----5/7\3-----3-----------3-----3/5\3/7---
A|-----------------------------------------------------------------------------------------
E|-5-5---5-5---5-5---5-5-------3-3---3-3---3-3---3-3-------1-1---1-1---1-1---1-1-----------



E|-------------------------------------------
B|-------------------------------------------
G|-----------7-------------------5-----------
D|-----7-----------7/8\5-----5---------5\3/8-
A|-------------------------------------------
E|-5-5---5-5---5-5-------3-3---3---3-3-------
[/code]
[url]http://www.guitartabcreator.com[/url]
Guitar Tab Creator is intended to store guitar tab created through the tool. It currently does not support in-line text editing. Any text you place in here will be lost. If you need to comment on your tab, please use the "Tab Notes" section located below.