Blessed Be Your Name

(/) Slide Up  (\) Slide Down  (h) Hammer On  (p) Pull Off  (b) Bend (r) Release (v) Vibrato


E|-------------------------------------------------------------------------------
B|--6-----------6-----6-------------6-----6-----------------6-----6--------------
G|-----8--6--8-----6-------------------6-----6--8--6--8--6-----6-----6-----------
D|-----------------------8--6--8----------------------------------------8--6--8--
A|-------------------------------------------------------------------------------
E|-------------------------------------------------------------------------------



E|-----------------------------------------------------
B|--6-----6--------6-----------------------------------
G|-----6-----6--5-----5--5--6--------8--6-----8--6-----
D|-----------------------------6--8--------8--------8--
A|-----------------------------------------------------
E|-----------------------------------------------------



E|-----------------------------------------------------------
B|-----6-----7--6--------------------------------------------
G|--6-----6--------6/8--6--6--5----6-----6-----6/8--6--6--5--
D|------------------------------------6-----6----------------
A|-----------------------------------------------------------
E|-----------------------------------------------------------
http://www.guitartabcreator.com
Guitar Tab Creator is intended to store guitar tab created through the tool. It currently does not support in-line text editing. Any text you place in here will be lost. If you need to comment on your tab, please use the "Tab Notes" section located below.