Limitless

(/) Slide Up  (\) Slide Down  (h) Hammer On  (p) Pull Off  (b) Bend (r) Release (v) Vibrato


E|--------------------------------------------------------------------------------------
B|--------------------------5--5--3--3--3--3--3--3--3--3--------------5--5--7--7--7--7--
G|--2--2--2--2--2--2--2--2--------------------------------2--2--2--2--------------------
D|--------------------------------------------------------------------------------------
A|--------------------------------------------------------------------------------------
E|--------------------------------------------------------------------------------------



E|--------------------------------------------------------------------------------------
B|--7--7--7--7--------------5--5--3--3--3--3--3--3--3--3--------------5--5--7--7--7--7--
G|--------------2--2--2--2--------------------------------2--2--2--2--------------------
D|--------------------------------------------------------------------------------------
A|--------------------------------------------------------------------------------------
E|--------------------------------------------------------------------------------------



E|-----------------------------------------------------------
B|--7--7--7--7--------------5--5--3--5--3--------------------
G|--------------2--2--2--2-----------------4--2--2--2--2--2--
D|-----------------------------------------------------------
A|-----------------------------------------------------------
E|-----------------------------------------------------------



E|-----------------------------------------------
B|-----------------------------------------------
G|--2--4--2--------4--2--------------------4--2--
D|-----------4--2--------4--2--------4--2--------
A|-----------------------------5--2--------------
E|-----------------------------------------------
http://www.guitartabcreator.com
Guitar Tab Creator is intended to store guitar tab created through the tool. It currently does not support in-line text editing. Any text you place in here will be lost. If you need to comment on your tab, please use the "Tab Notes" section located below.