Be Lifted Higher

(/) Slide Up  (\) Slide Down  (h) Hammer On  (p) Pull Off  (b) Bend (r) Release (v) Vibrato

E|-----------------------------------
B|-----------------------------------
G|--5--7--5-----5-----5--7--5-----5--
D|-----------8-----8-----------8-----
A|-----------------------------------
E|-----------------------------------



E|-----------------------------------------------------------
B|--6--8-----6-----------------------8--6-----6--8--6-----6--
G|--------------7--5-----------7-----------7-----------7-----
D|--------8-----------8--8--8-----8--------------------------
A|-----------------------------------------------------------
E|-----------------------------------------------------------



E|--------------------------------------------------------------------------------------------
B|-----------------------------------------7-----------------------------------------7--------
G|--8--8--8--8--8--8--8--8--8--8--8--8--8-----8--8--8--8--8--8--8--8--8--8--8--8--8-----8--8--
D|--------------------------------------------------------------------------------------------
A|--------------------------------------------------------------------------------------------
E|--------------------------------------------------------------------------------------------



E|--
B|--
G|--
D|--
A|--
E|--
http://www.guitartabcreator.com
Guitar Tab Creator is intended to store guitar tab created through the tool. It currently does not support in-line text editing. Any text you place in here will be lost. If you need to comment on your tab, please use the "Tab Notes" section located below.